Make your own free website on Tripod.com
 
Jimmy Eat World - Thinking, That's All (from the album Static Prevails)

Standard Tuning

Intro:
Guitar 1 (play once, then Guitar 2 accompanies)
|-------------------------------------
|----------5-5-4-44----------5-5-4-44-
|-6-6-66-6-6-6-4-44-6-6-66-6-6-6-4-44-
|-x-x-xx-x-x-x-x-xx-x-x-xx-x-x-x-x-xx-
|-4-4-44-4-4-4-2-22-4-4-44-4-4-4-2-22-
|-------------------------------------

Guitar 2
|-------------------------------------
|-------------------------------------
|-6-6-66-6-9-9------6-6-66-6-9-9------
|-x-x-xx-x-9-9-9-99-x-x-xx-x-9-9-9-99-
|-4-4-44-4-7-7-9-99-4-4-44-4-7-7-9-99-
|--------------7-77--------------7-77-

Verse:
|-----------------------------------------------------------------
|-----------------------------------------------------------------
|-6-6-6-6-6-6-6-6-6-6-6-6-6-6-6-6---------------------------------
|-6-6-6-6-6-6-6-6-6-6-6-6-6-6-6-6-7-7-7-7-7-7-7-7-7-7-7-7-7-7-7-7-
|-4-4-4-4-4-4-4-4-4-4-4-4-4-4-4-4-7-7-7-7-7-7-7-7-7-7-7-7-7-7-7-7-
|---------------------------------5-5-5-5-5-5-5-5-5-5-5-5-5-5-5-5-
 |________________________heavy palm-muting_______________________|

|-----------------------------------------------------------------
|-----------------------------------------------------------------
|-6-6-6-6-6-6-6-6-6-6-6-6-6-6-6-6---------------------------------
|-6-6-6-6-6-6-6-6-6-6-6-6-6-6-6-6-7-7-7-7-7-7-7-7-7-7-7-7-7-7-7-7-
|-4-4-4-4-4-4-4-4-4-4-4-4-4-4-4-4-7-7-7-7-7-7-7-7-7-7-7-7-7-7-7-7-
|---------------------------------5-5-5-5-5-5-5-5-5-5-5-5-5-5-5-5-
 |________________________heavy palm-muting_______________________|
 

Chorus:
Guitar 1
|-----------------------------------------------------------------
|-----------------------------------------------------------------
|-6-6-6-6-------------------------6-6-6-6-------------------------
|-6-6-6-6-6-6-6-6-4-4-4-4-4-4-4-4-6-6-6-6-6-6-6-6-4-4-4-4-4-4-4-4-
|-4-4-4-4-0-0-0-0-4-4-4-4-4-4-4-4-4-4-4-4-0-0-0-0-4-4-4-4-4-4-4-4-
|-----------------2-2-2-2-2-2-2-2-----------------2-2-2-2-2-2-2-2-

Guitar 2
|-----------------------------------------------------------------
|-----------------------------------------------------------------
|-6-6-6-6-2-2-2-2-----------------6-6-6-6-2-2-2-2-----------------
|-6-6-6-6-2-2-2-2-4-4-4-4-4-4-4-4-6-6-6-6-2-2-2-2-4-4-4-4-4-4-4-4-
|-4-4-4-4-0-0-0-0-4-4-4-4-4-4-4-4-4-4-4-4-0-0-0-0-4-4-4-4-4-4-4-4-
|-----------------2-2-2-2-2-2-2-2-----------------2-2-2-2-2-2-2-2-
 

Bridge:
Guitar 1
|-----------------------------------------------------------------
|-----------------------------------------------------------------
|-6-6-6-6-9-9-9-9-----------------6-6-6-6-9-9-9-9-----------------
|-6-6-6-6-9-9-9-9-7-7-7-7-7-7-7-7-6-6-6-6-9-9-9-9-7-7-7-7-7-7-7-7-
|-4-4-4-4-7-7-7-7-7-7-7-7-7-7-7-7-4-4-4-4-7-7-7-7-7-7-7-7-7-7-7-7-
|-----------------5-5-5-5-5-5-5-5-----------------5-5-5-5-5-5-5-5-

Guitar 2
|-------------------------------------------------------------
|-------------------------------------------------------------
|-8-8-8-8-9-9-9-9-8-8-8-8-9-9-9-9-8-8-8-8-9-9-9-9-11-11-11-11-
|-x-x-x-x-x-x-x-x-x-x-x-x-x-x-x-x-x-x-x-x-x-x-x-x-x--x--x--x--
|-6-6-6-6/7-7-7-7\6-6-6-6/7-7-7-7\6-6-6-6/7-7-7-7-9--9--9--9--
|-------------------------------------------------------------

|---------------------------------------------------------
|---------------------------------------------------------
|-8-8-8-8-9-9-9-9-8-8-8-8-9-9-9-9-----6-----6-----6-----6-
|-x-x-x-x-x-x-x-x-x-x-x-x-x-x-x-x-----x-----x-----x-----x-
|-6-6-6-6/7-7-7-7\6-6-6-6/7-7-7-7-----4-----4-----4-----4-
|---------------------------------5-5---5-5---5-5---5-5---
 

Structure + Lyrics

Intro

Verse
play your hand
don't play it off
don't play that game
out of touch
there is no pride in seconds lost

Chorus

Verse
first cello suite
i know i'm late
what do you care
stop dragging feet
we can't go back for seconds lost

Chorus
drive by don't stop
drive by don't stop
hate wins don't stop
hate wins don't stop

Intro riff

Verse (string scrapes)

smooth the sheets
no one was here and never will
wind your watch for seconds gone

Bridge

Chorus
drive by don't stop
drive by don't stop
hate wins don't stop
hate wins don't stop

Noise solo (bass plays intro)

Intro (1x)