Make your own free website on Tripod.com
Jimmy Eat World - The Most Beautiful Things

Drop-D Tuning (D A D G B E)

Intro:
Guitar 1
|-0-------0-----0-----0-----0-----0-----0---0-----0---
|---0-------0-----0-----0-----0-----0-----0---0-----0-
|-----2-------2-----------2-----------2---------2-----
|-2-----0---------------------------------------------
|-------------------4---------------------------------
|-------------------------------4-----------0---------

Verse:
Guitar 1
|---0-----0-----0-----0-----0-----0---0-----0---
|-----0-----0-----0-----0-----0-----0---0-----0-
|-------2-----------2-----------2---------2-----
|-0---------------------------------------------
|-------------4---------------------------------
|-------------------------4-----------0---------

Guitar 2
|--------------------------------------------9-------
|-10------10------10------10------12p10--------10----
|----9-------9-------9-------9----------9------------
|------12------12------11------11---------11------11-
|----------------------------------------------------
|----------------------------------------------------

Chorus:
Both Guitars
|---------------------------------------------------------- 2x
|-----------------------3-3-3------------------------3-3-3-
|-7---------------------2-2-2--7---------------------2-2-2-
|-7-------7-------4-4-4-0-0-0--7-------7-------4-4-4-0-0-0-
|-5-------4-------4-4-4-0-0-0--5-------4-------4-4-4-0-0-0-
|-0---------------4-4-4-0-0-0--0---------------4-4-4-0-0-0-

Bridge:
Both Guitars
|-------------------------------------------------
|-------------------------3-3-3-3-3-3-3-3-3-3-3-3-
|-2-2-2-2-2-2-------------2-2-2-2-2-2-2-2-2-2-2-2-
|-2-2-2-2-2-2-4-4-4-4-4-4-0-0-0-0-0-0-0-0-0-0-0-0-
|-0-0-0-0-0-0-4-4-4-4-4-4-0-0-0-0-0-0-0-0-0-0-0-0-
|-------------4-4-4-4-4-4-0-0-0-0-0-0-0-0-0-0-0-0-

Guitar 3 and xylophone
|----------------------------------------------------------
|----------------------------------------------------------
|-6-7-9-14-9-7--6-7-9-14-9-7--6-7-9-14-9-7--6-7-9-14-16-14-
|-x-x-x-x--x-x--x-x-x-x--x-x--x-x-x-x--x-x--x-x-x-x--x--x--
|-4-5-7-12-7-5--4-5-7-12-7-5--4-5-7-12-7-5--4-5-7-12-14-12-
|----------------------------------------------------------

Lyrics + Structure

Intro

Verse

you say the most beautiful things
an endless list of treasures
of trimmings
it takes all my faith just to start
i don't care now how much i'm wrong

Chorus

show us all what grace can mean
all of what i might be
close your eyes
call it escape
we'll run away from everything

Verse

my song it shames your ears
every sentence is a failure
slant rhyme is all i can give
half truth is all i'll get

Chorus

show us all what grace can mean
all of what i might be
close your eyes
call it escape
we'll run away from everything

Bridge

Chorus

show us all what grace can mean
all of what i might be
close your eyes
call it escape
we'll run away from everything