Make your own free website on Tripod.com
Jimmy Eat World - Table for Glasses (from the album Clarity)

Drop-D Tuning (D A D G B E)

Intro:

Part A
|-----0-0-----0-0------0-0------0-0------0-0-----0-0------0-0------0-0--
|---3-3-----3-3------3-3------3-3------3-3-----3-3------3-3------3-3----
|-2-------0--------------------------2-------0--------------------------
|------------------0--------0-------------------------0--------0--------
|-----------------------------------------------------------------------
|-----------------------------------------------------------------------

|-----0-0-----0-0------0-0------0-0------0-0-----0-0------0-0------0-0--
|---3-3-----3-3------3-3------3-3------3-3-----3-3------3-3------3-3----
|-2-------0--------------------------2-------0--------------------------
|------------------0--------0-------------------------0--------0--------
|-----------------------------------------------------------------------
|-----------------------------------------------------------------------

Part B
|-----0-0------0-0------0-0------0-0------0-0------0-0------0-0------0-0--
|---3-3------3-3------3-3------3-3------3-3------3-3------3-3------3-3----
|-------------------0--------0--------------------------0--------0--------
|-2--------2--------5--------5--------2--------2--------5--------5--------
|-------------------------------------------------------------------------
|-------------------------------------------------------------------------

|-----0-0------0-0------0-0------0-0------0-0------0-0------0-0------0-0--
|---3-3------3-3------3-3------3-3------3-3------3-3------3-3------3-3----
|-------------------0--------0--------------------------0--------0--------
|-2--------2--------5--------5--------2--------2--------5--------5--------
|-------------------------------------------------------------------------
|-------------------------------------------------------------------------
 
 

Verse:
Strum these chords along with Part A and Part B of intro
 
  A  G  D
|-------0-
|-------3-
|-9--7--2-   Part A
|-7--5--0-
|-7--5--0-
|-7--5--0-

  Em G
|------
|------
|-4--7-      Part B
|-2--5-
|-2--5-
|-2--5-

Chorus:
Guitar 1
  D  Bm  G
|-0--------
|-3--------
|-2--11--7-
|-0--9---5-
|-0--9---5-
|-0--9---5-

Guitar 2
|-0--0----
|-3--3--3-
|-2--2--0-
|-0--0--0-
|-0--2--x-
|-0-----5-
 
 

Lyrics + Structure
 

Intro
(part a)
sweep the dirty stairs, the ones i waited on
this is just for me
i felt it watching her
(part b)
it happens too fast to make sense of it, make it last
it happens too fast to make sense of it, make it last

Cello solo

Verse
(part a)
where do you intend to go with your dirty dress?
lead my skeptic sight to the table and the light
(part b)
it happened too fast to make sense of, make it last
it happened too fast to make sense of, make it last

Chorus
lead my skeptic sight, lead my skeptic sight
(saying nothing about what it means
without anybody telling me how i should feel)

Outro
lead my skeptic sight, to the table and the light