Make your own free website on Tripod.com
Jimmy Eat World - Sweetness (unreleased)

Drop-D Tuning (D A D G B E)

Intro:
|-3-3-3-3-3-3-3-3-3-3-3-3-
|-6-6-6-6-6-6-6-6-6-6-6-6-
|-5-5-5-5-5-5-5-5-5-5-5-5-
|-3-3-3-3-3-3-3-3-3-3-3-3-
|-3-3-3-3-3-3-3-3-3-3-3-3-
|-3-3-3-3-3-3-3-3-3-3-3-3-

Verse:
Guitar 1
|-3-3-3-3-3-3-3-3-3-3-3-3-3-3-3-3---------------------------------
|-6-6-6-6-6-6-6-6-6-6-6-6-6-6-6-6---------------------------------
|-5-5-5-5-5-5-5-5-5-5-5-5-5-5-5-5---------------------------------
|-3-3-3-3-3-3-3-3-3-3-3-3-3-3-3-3-0-0-0-0-0-0-0-0-0-0-0-0-0-0-0-0-
|-3-3-3-3-3-3-3-3-3-3-3-3-3-3-3-3-0-0-0-0-0-0-0-0-0-0-0-0-0-0-0-0-
|-3-3-3-3-3-3-3-3-3-3-3-3-3-3-3-3-0-0-0-0-0-0-0-0-0-0-0-0-0-0-0-0-

Guitar 2
|-----------------------------------------------------------------
|-----------------------------------------------------------------
|---------------------------------9-9-9-9-9-9-9-9-9-9-9-9-9-9-9-9-
|---------------------------------x-x-x-x-x-x-x-x-x-x-x-x-x-x-x-x-
|---------------------------------7-7-7-7-7-7-7-7-7-7-7-7-7-7-7-7-
|-----------------------------------------------------------------

Chorus:
  Bb5             C5                      D5
|-------------------------------------------------------------------------
|-------------------------------------------------------------------------
|-------------------------------------------------------------------------
|-8-8-8-8-8-8-8-8-10-10-10-10-10-10-10-10-0-0-0-0-0-0-0-0-0-0-0-0-0-0-0-0-
|-8-8-8-8-8-8-8-8-10-10-10-10-10-10-10-10-0-0-0-0-0-0-0-0-0-0-0-0-0-0-0-0-
|-8-8-8-8-8-8-8-8-10-10-10-10-10-10-10-10-0-0-0-0-0-0-0-0-0-0-0-0-0-0-0-0-

  Bb5             C                       F5
|-------------------------------------------------------------------------
|-------------------------------------------------------------------------
|-------------------------------------------------------------------------
|-8-8-8-8-8-8-8-8-10-10-10-10-10-10-10-10-3-3-3-3-3-3-3-3-3-3-3-3-3-3-3-3-
|-8-8-8-8-8-8-8-8-10-10-10-10-10-10-10-10-3-3-3-3-3-3-3-3-3-3-3-3-3-3-3-3-
|-8-8-8-8-8-8-8-8-10-10-10-10-10-10-10-10-3-3-3-3-3-3-3-3-3-3-3-3-3-3-3-3-

Interlude:
Guitar 1
  G5              Bb5             F5
|-----------------------------------------------------------------
|-----------------------------------------------------------------
|-----------------------------------------------------------------
|-5-5-5-5-5-5-5-5-8-8-8-8-8-8-8-8-3-3-3-3-3-3-3-3-3-3-3-3-3-3-3-3-
|-5-5-5-5-5-5-5-5-8-8-8-8-8-8-8-8-3-3-3-3-3-3-3-3-3-3-3-3-3-3-3-3-
|-5-5-5-5-5-5-5-5-8-8-8-8-8-8-8-8-3-3-3-3-3-3-3-3-3-3-3-3-3-3-3-3-

Guitar 2
|-----------------------------------------------------------------------
|-----------------------------------------------------------------------
|-10-10-12--12\14-10-14/12/10/9-10-5--12-14-10-12\14-10-14/12/10/9-10-5-
|-x--x--x---x--x--x--x--x--x--x-x--x--x--x--x--x--x--x--x--x--x--x-x--x-
|-8--8--10--10\12-8--12/10/8/-7\8/-3--10-12-8--10\12-8--12/10/8/-7\8/-3-
|-----------------------------------------------------------------------

Second Interlude (nylon string acoustic solo):
Play Verse 2x
Play Chorus 1x

Outro:
  Bb5             C                       F5
|-------------------------------------------------------------------------
|-------------------------------------------------------------------------
|-------------------------------------------------------------------------
|-8-8-8-8-8-8-8-8-10-10-10-10-10-10-10-10-3-3-3-3-3-3-3-3-3-3-3-3-3-3-3-3-
|-8-8-8-8-8-8-8-8-10-10-10-10-10-10-10-10-3-3-3-3-3-3-3-3-3-3-3-3-3-3-3-3-
|-8-8-8-8-8-8-8-8-10-10-10-10-10-10-10-10-3-3-3-3-3-3-3-3-3-3-3-3-3-3-3-3-
 

Structure + Lyrics

Intro and Verse
are you listening?
sing it back
straight from your deadly rhyme wines
up and i would do fine

Chorus
i was spinning free
with a little sweet and simple numbing me

Verse
are you listening?
sing it back
tell me "what do i need?"
what, was this the meaning?

Chorus

Verse
stumbled to your car
sinking into sweet uncertainty

Interlude

Break (play intro)

Interlude II

and you're listening (are you listening?)
sing it back
i'm still running away
i won't play your hide and seek game

Chorus

but i did say dance
the sweetness will not be concerned with me
no, the sweetness will not be concerned with me
no, the sweetness will not be concerned with me