Make your own free website on Tripod.com
 
Jimmy Eat World - Opener (from Emo Diaries Vol. 1 - What's Mine Is Yours)

Drop-D Tuning (D A D G B E)

Intro:
Guitar 1
|----------------------------------------------------------------------------------------------
|----------------------------------------------------------------------------------------------
|-8-8-8-8-8-8-8-8-8-8-8-8-8-8-8-8-8-8-8-8-8-8-8-8-13-13-13-13-13-13-13-13-13-13-13-13-13-13-13-
|-5-5-5-5-5-5-5-5-5-5-5-5-5-5-5-5-5-5-5-5-5-5-5-5-x--x--x--x--x--x--x--x--x--x--x--x--x--x--x--
|-6-6-6-6-6-6-6-6-6-6-6-6-6-6-6-6-6-6-6-6-6-6-6-6-11-11-11-11-11-11-11-11-11-11-11-11-11-11-11-
|-5-5-5-5-5-5-5-5-5-5-5-5-5-5-5-5-5-5-5-5-5-5-5-5----------------------------------------------

Guitar 2
|----------------------------------------------------------------------------------------------
|----------------------------------------------------------------------------------------------
|----------------------------------------------------------------------------------------------
|-5-5-5-5-5-5-5-5-5-5-5-5-5-5-5-5-5-5-5-5-5-5-5-5----------------------------------------------
|-------------------------------------------------6--6--6--6--6--6--6--6--6--6--6--6--6--6--6--
|----------------------------------------------------------------------------------------------

Guitar 1
|-----------------------------------------------------------------
|-----------------------------------------------------------------
|-8-8-8-8-8-8-8-8-8-8-8-8-8-8-8-8-5-5-5-5-5-5-5-5-7-7-7-7-7-7-7-7-
|-5-5-5-5-5-5-5-5-5-5-5-5-5-5-5-5-x-x-x-x-x-x-x-x-x-x-x-x-x-x-x-x-
|-6-6-6-6-6-6-6-6-6-6-6-6-6-6-6-6-3-3-3-3-3-3-3-3-5-5-5-5-5-5-5-5-
|-----------------------------------------------------------------

Guitar 2
|-----------------------------------------------------------------
|-----------------------------------------------------------------
|-----------------------------------------------------------------
|-5-5-5-5-5-5-5-5-5-5-5-5-5-5-5-5-5-5-5-5-5-5-5-5-----------------
|-------------------------------------------------5-5-5-5-5-5-5-5-
|-----------------------------------------------------------------

Pre-Verse:
Guitar 1
|---------------------------------------
|---------------------------------------
|---------------------------------------
|-6------8-6------8-6------6------------
|-6------8-6------8-6------6------------
|-6------8-6------8-6------6------------

Guitar 2
|---------------------------------------
|---------------------------------------
|-------------------8-8-8-8-8-8-8-8-7-7-
|-------------------x-x-x-x-x-x-x-x-x-x-
|-------------------6-6-6-6-6-6-6-6-5-5-
|---------------------------------------

Verse:
|-----------------------------------------
|-----------------------------------------
|-8-8-8-8---------------------------------
|-8-8-8-8-8-8-8-8-10-10-10-10-6-6--6-6----
|-6-6-6-6-8-8-8-8-10-10-10-10-6-6--6-6----
|---------8-8-8-8-10-10-10-10-6-6--6-6----
                             |_palm mute_|

Pre-Chorus:
Guitar 1
|-------------------------------------------------------------
|-------------------------------------------------------------
|-8-----/10-7-/8----------------8-----/10-7-/8----------------
|-x------x--x--x----------------x------x--x--x----------------
|-6-----/8--5-/6----------------6-----/8--5-/6----------------
|-------------------------------------------------------------

Guitar 2
|-------------------------------------------------------------
|-------------------------------------------------------------
|--------------55555555----------------------55555555---------
|--------------55555555-6-6-6-6--------------55555555-6-6-6-6-
|--------------33333333-6-6-6-6--------------33333333-6-6-6-6-
|-----------------------6-6-6-6-----------------------6-6-6-6-
              |__p.m.__|                    |__p.m.__|

Chorus:
|-----------------------------------------------------------------------
|-----------------------------------------------------------------------
|-8-8-8-8-----------------------------8-8-8-8---------55555555----------
|-8-8-8-8-8-8-8-8-10-10-10-10-6-6-6-6-8-8-8-8-8-8-8-8-55555555-66666666-
|-6-6-6-6-8-8-8-8-10-10-10-10-6-6-6-6-6-6-6-6-8-8-8-8-33333333-66666666-
|---------8-8-8-8-10-10-10-10-6-6-6-6---------8-8-8-8----------66666666-
                                                     |____palm mute____|
Bridge:
|-----------------------------------------------------------------
|-----------------------------------------------------------------
|-----------------------------------------------------------------
|-5-5-5-5-6-6-6-6-5-5-5-5-6-6-8-8-5-5-5-5-6-6-6-6-8-8-8-8-8-8-8-8-
|-5-5-5-5-6-6-6-6-5-5-5-5-6-6-8-8-5-5-5-5-6-6-6-6-8-8-8-8-8-8-8-8-
|-5-5-5-5-6-6-6-6-5-5-5-5-6-6-8-8-5-5-5-5-6-6-6-6-8-8-8-8-8-8-8-8-

Guitar 2 comes in second time
|---------------------------------
|-8-9-8-9-8-9-8-9-8-9-8-9-8-9-8-9-
|---------------------------------
|---------------------------------
|---------------------------------
|---------------------------------

Interlude:
Guitar 1
|-----------------------------------------------------------------
|-----------------------------------------------------------------
|-8-8-8-8-8-8-8-8-8-8-8-8-8-8-8-8-8-8-8-8-8-8-8-8-7-7-7-7-8-8-8-8-
|-x-x-x-x-x-x-x-x-x-x-x-x-x-x-x-x-x-x-x-x-x-x-x-x-x-x-x-x-x-x-x-x-
|-6-6-6-6-6-6-6-6-6-6-6-6-6-6-6-6-6-6-6-6-6-6-6-6-5-5-5-5-6-6-6-6-
|-----------------------------------------------------------------

Guitar 2
|-----------------------------------------------------------------
|-9-9-8-8-9-9-8-8-9-9-8-8-9-9-8-8-9-9-8-8-9-9-8-8-----------------
|-8-8-8-8-8-8-8-8-8-8-8-8-8-8-8-8-8-8-8-8-8-8-8-8-7-7-7-7-8-8-8-8-
|-----------------------------------------------------------------
|-----------------------------------------------------------------
|-----------------------------------------------------------------

Bass
|------------------------------------------------------------------
|------------------------------------------------------------------
|-------------------------6-----------------------5-------6--------
|-6-------5-------6---------------6-------5------------------------

End interlude on:
Guitar 1  Guitar 2
|-------------
|-------------
|-8--------12-
|-x--------x--
|-6--------10-
|-------------

Quiet Interlude (no real pattern, just messing around):
|------------------------------------------
|------------------------------------------
|-8\7h8---8\7------------8\7h8---8\7-------
|-------8-----6\5-5/8----------8-----6\5-1-
|------------------------------------------
|------------------------------------------

Outro:
Riff A 4x
|---------------------------------------------------------
|---------------------------------------------------------
|---------------------------------------------------------
|-6-6-6-6-6-6-6-6-6-6-6-6-8-8-6-6-6-6-6-6-6-6-6-6-6-6-8-8-
|-6-6-6-6-6-6-6-6-6-6-6-6-8-8-6-6-6-6-6-6-6-6-6-6-6-6-8-8-
|-6-6-6-6-6-6-6-6-6-6-6-6-8-8-6-6-6-6-6-6-6-6-6-6-6-6-8-8-

Riff B (with riff A chords) 3x
|--------------------------------------
|--------------------------------------
|-8-8-8-8-8-8-8-8-8-8-8-8-10-10-12--12-
|-x-x-x-x-x-x-x-x-x-x-x-x-x--x--x---x--
|-6-6-6-6-6-6-6-6-6-6-6-6-8--8--10--10-
|--------------------------------------

|---------------------------------------------------
|---------------------------------------------------
|-12-12-12-12-12-12-12-12-13-13-13-13-13-12-12-12-8-
|-x--x--x--x--x--x--x--x--x--x--x--x--x--x--x--x--x-
|-10-10-10-10-10-10-10-10-11-11-11-11-10-10-10-10-6-
|---------------------------------------------------

End with Intro Riff
End on:
Guitar 1  Guitar 2
|-------------
|-------------
|----------12-
|-1--------x--
|-1--------10-
|-1-----------
 

Structure + Lyrics

Intro

Pre-Verse

Verse
you told me
don't you look at the sun
it burns your eyes out
i disobeyed and seen the man
who's going nowhere

Pre-Chorus

Chorus
convince me this
you don't got to worry
you're on your feet
please help me down
i brainstormed and caught up with my friend
he's doing fine now

Verse
its been uplifting
knowing you are
how sad, its so sad

Pre-Chorus

Chorus
i beg him this
may he mind not worry
to break this chord of paranoia

Bridge
and there's no anecdote for a petty love
i think you found the lighter side
of our friendly hope
i don't mean to poke
we can face obvious nonsense

Interlude

Quiet Interlude

Outro

Intro riff

End on Eb and G octave