Make your own free website on Tripod.com
 
Jimmy Eat World - New Religion (from the Duran Duran tribute CD)

Drop-D Tuning (D A D G B E)

Intro and Verse:

Guitar 1
|---------------------------------
|---------------------------------
|---------------------------------
|-----------------0-0-0-0---------
|-2-2-2-2-2-2-2-2-x-x-x-x-0-0-0-0-
|-2-2-2-2-2-2-2-2-5-5-5-5-0-0-0-0-

Guitar 2
|---------------------------------
|----------0----------------------
|----0---------0-----0-------0----
|--4-----------------------4------
|---------------------------------
|---------------------------------

Chorus:
Guitar 1
|----------------------------------------------------------------------------------
|-------------------------3-3-3-3----------------------------------3-3-3-3---------
|-------------------------0-0-0-0----------------------------------0-0-0-0-2-2-2-2-
|-12-12-12-12-12-12-12-12-0-0-0-0----------12-12-12-12-12-12-12-12-0-0-0-0-0-0-0-0-
|-10-10-10-10-10-10-10-10-x-x-x-x-2-2-2-2--10-10-10-10-10-10-10-10-x-x-x-x-0-0-0-0-
|-10-10-10-10-10-10-10-10-5-5-5-5-2-2-2-2--10-10-10-10-10-10-10-10-5-5-5-5-0-0-0-0-

Guitar 2 (variations)
|---------------------------------------
|-----0----0--------3b-----0----0--1~-0-
|-----4b-0-0----0----------4b-0-0-------
|-------------4---4---------------------
|---------------------------------------
|---------------------------------------

Chorus 2:
Heavy distortion
|---------------------------------|---
|---------------------------------|---
|-5-5-5-5-5-5-5-5-----------------|-5-
|-5-5-5-5-5-5-5-5-2-2-2-2-5-5-5-5-|-5-
|-3-3-3-3-3-3-3-3-2-2-2-2-5-5-5-5-|-3-
|-----------------2-2-2-2-5-5-5-5-|---

Outro:
Lightly distorted
|----15----15----15----15----15----15----15----15-
|-15----15----15----15----15----15----15----15----
|-------------------------------------------------
|-------------------------------------------------
|-------------------------------------------------
|-------------------------------------------------

Structure + Lyrics

Intro (4x)

Verse (4x)
i've been now sauntering out and down a path sometime
it takes me nowhere which i knew
i need a reason
call it treason
maybe catch her i don't know
too Much to know

Chorus (1x)

Guitar 2 interlude

Verse (4x)
bring my timing in, seagulls gather on the wind
lady screaming, lady leave
'cause sometimes people stare
coming down, electric chair
and steaming crowds they gather and they shout

Chorus (2x)

Verse / Guitar 2 interlude (4x)
don't know why this evil follows me
so why is he trying to follow me?
how many reasons do they need?
i might just be right this time
i might just believe this time

Chorus 2 (14x)
its a new religion
i'm talking for free, i can't stop myself
i've something to see, i can't help myself
(its a new religion)

Outro (fades out)