Make your own free website on Tripod.com
 
Jimmy Eat World - Hear You Me
transcribed by Bill Martin <billyeatworld@altavista.com>
with assistance from Steve Easton <em0@lamerbob.com> and
                     Alexander Inderst <Alexander-Inderst@web.de>

Standard Tuning (E A D G B E)
Guitars 1 and 4 - capo on 2nd fret

Intro:
Guitar 1 (acoustic)
|---2-2-2-2-2---2-2-2-2-2---2-2-2-2-2---2-2-2-2-2-
|---3-3-3-3-3---3-3-3-3-3---3-3-3-3-3---3-3-3-3-3-
|---2-2-2-2-2---2-2-2-2-2---2-2-2-2-2---2-2-2-2-2-
|-0-----------0-----------0-----------0-----------
|-------------------------------------------------
|-------------------------------------------------
 

Verse:
Guitar 1
|---2-2-2-2-2---2-2-2-2-2---2-2-2-2-2---2-2-2-2-2---0-0-0-0-0---0-0-0-0-0-
|---3-3-3-3-3---3-3-3-3-3---3-3-3-3-3---3-3-3-3-3---3-3-3-3-3---3-3-3-3-3-
|---2-2-2-2-2---2-2-2-2-2---2-2-2-2-2---2-2-2-2-2---2-2-2-2-2---2-2-2-2-2-
|-0-----------0-----------0-----------0-------------2-2-2-2-2---2-2-2-2-2-
|-------------------------------------------------0-----------0-----------
|-------------------------------------------------------------------------

|---0-0-0-0-0---0-0-0-0-0---0-0-0-0-0---0-0-0-0-0---0-0-0-0-0---0-0-0-0-0-
|---3-3-3-3-3---3-3-3-3-3---3-3-3-3-3---3-3-3-3-3---3-3-3-3-3---3-3-3-3-3-
|---2-2-2-2-2---2-2-2-2-2---2-2-2-2-2---2-2-2-2-2---2-2-2-2-2---2-2-2-2-2-
|---2-2-2-2-2---2-2-2-2-2---0-0-0-0-0---0-0-0-0-0---0-0-0-0-0---0-0-0-0-0-
|-0-----------0-----------2-----------2-----------2-----------2-----------
|-------------------------------------------------------------------------

|---0-0-0-0-0---0-0-0-0-0---0-0-0-0-0---0-0-0-0-0-
|---3-3-3-3-3---3-3-3-3-3---3-3-3-3-3---3-3-3-3-3-
|---0-0-0-0-0---0-0-0-0-0---0-0-0-0-0---0-0-0-0-0-
|---0-0-0-0-0---0-0-0-0-0---0-0-0-0-0---0-0-0-0-0-
|---2-2-2-2-2---2-2-2-2-2---2-2-2-2-2---2-2-2-2-2-
|-3-----------3-----------3-----------3-----------
 

Chorus:
Guitar 1
|-2-2-2-0-0-0-------------2-2-2-0-0-0-------------2-2-2-0-0-0-0-0-0-------
|-3-3-3-3-3-3-3-3-3-3-3-3-3-3-3-3-3-3-3-3-3-3-3-3-3-3-3-3-3-3-3-3-3-3-3-3-
|-2-2-2-2-2-2-0-0-0-0-0-0-2-2-2-2-2-2-0-0-0-0-0-0-2-2-2-2-2-2-0-0-0-0-0-0-
|-0-0-0-2-2-2-0-0-0-0-0-0-0-0-0-2-2-2-0-0-0-0-0-0-0-0-0-2-2-2-2-2-2-0-0-0-
|-------0-0-0-2-2-2-2-2-2-------0-0-0-2-2-2-2-2-2-------0-0-0-2-2-2-2-2-2-
|-------------3-3-3-3-3-3-------------3-3-3-3-3-3-------------0-0-0-3-3-3-

|-2-2-2-0-0-0-------------
|-3-3-3-3-3-3-3-3-3-3-3-3-
|-2-2-2-2-2-2-0-0-0-0-0-0-
|-0-0-0-2-2-2-0-0-0-0-0-0-
|-------0-0-0-2-2-2-2-2-2-
|-------------3-3-3-3-3-3-

Guitar 2
|-0----0----0----0----0----0----0----0----0----0----0----0----0----0----0----0---
|---5----4----5----5----5----4----5----5----5----4----5----5----5----4----5----5-
|--------------------------------------------------------------------------------
|--------------------------------------------------------------------------------
|--------------------------------------------------------------------------------
|--------------------------------------------------------------------------------

Guitar 3
|-------------------------------------------4--4-2--2-2--4--0--------------------
|--------------------------------------------------------------------------------
|--------------------------------------------------------------------------------
|--------------------------------------------------------------------------------
|--------------------------------------------------------------------------------
|--------------------------------------------------------------------------------
 

Interlude:
Guitar 1
|---2-2-2-2-2---2-2-2-2-2---2-2-2-2-2---2-2-2-2-2---0-0-0-0-0---0-0-0-0-0-
|---3-3-3-3-3---3-3-3-3-3---3-3-3-3-3---3-3-3-3-3---3-3-3-3-3---3-3-3-3-3-
|---2-2-2-2-2---2-2-2-2-2---2-2-2-2-2---2-2-2-2-2---2-2-2-2-2---2-2-2-2-2-
|-0-----------0-----------0-----------0-------------2-2-2-2-2---2-2-2-2-2-
|-------------------------------------------------0-----------0-----------
|-------------------------------------------------------------------------

|---0-0-0-0-0---0-0-0-0-0---0-0-0-0-0---0-0-0-0-0---0-0-0-0-0---0-0-0-0-0-
|---3-3-3-3-3---3-3-3-3-3---3-3-3-3-3---3-3-3-3-3---3-3-3-3-3---3-3-3-3-3-
|---2-2-2-2-2---2-2-2-2-2---2-2-2-2-2---2-2-2-2-2---2-2-2-2-2---2-2-2-2-2-
|---2-2-2-2-2---2-2-2-2-2---0-0-0-0-0---0-0-0-0-0---0-0-0-0-0---0-0-0-0-0-
|-0-----------0-----------2-----------2-----------2-----------2-----------
|-------------------------------------------------------------------------

|---0-0-0-0-0---0-0-0-0-0---0-0-0-0-0---0-0-0-0-0-
|---3-3-3-3-3---3-3-3-3-3---3-3-3-3-3---3-3-3-3-3-
|---0-0-0-0-0---0-0-0-0-0---0-0-0-0-0---0-0-0-0-0-
|---0-0-0-0-0---0-0-0-0-0---0-0-0-0-0---0-0-0-0-0-
|---2-2-2-2-2---2-2-2-2-2---2-2-2-2-2---2-2-2-2-2-
|-3-----------3-----------3-----------3-----------

Guitar 3 (piano arranged for guitar)
|--------------------------7----------------------------------------------
|---7-9-10-9---7---7-9-7-9---10-9-----7-9-10-9---7-9---------7-9-10-9-----
|-9----------9----------------------9----------9-----9-----9----------9-9-
|-------------------------------------------------------------------------
|-------------------------------------------------------------------------
|-------------------------------------------------------------------------
 

Bridge:
Guitar 1
|-2-2-2-2-2-2-2-2-2-2-2-2-3-3-3-3-3-3-5-5-5-5-5-5-2-2-2-2-2-2-2-2-2-0-0-0-
|-3-3-3-3-3-3-3-3-3-3-3-3-3-3-3-3-3-3-3-3-3-3-3-3-3-3-3-3-3-3-3-3-3-3-3-3-
|-4-4-4-4-4-4-4-4-4-4-4-4-0-0-0-0-0-0-0-0-0-0-0-0-4-4-4-4-4-4-4-4-4-2-2-2-
|-4-4-4-4-4-4-4-4-4-4-4-4-0-0-0-0-0-0-0-0-0-0-0-0-4-4-4-4-4-4-4-4-4-2-2-0-
|-2-2-2-2-2-2-2-2-2-2-2-2-2-2-2-2-2-2-2-2-2-2-2-2-2-2-2-2-2-2-2-2-2-0-0---
|-------------------------3-3-3-3-3-3-3-3-3-3-3-3-------------------------

|-3-3-3-3-3-3-5-5-5-5-5-5-
|-3-3-3-3-3-3-3-3-3-3-3-3-
|-0-0-0-0-0-0-0-0-0-0-0-0-
|-0-0-0-0-0-0-0-0-0-0-0-0-
|-2-2-2-2-2-2-2-2-2-2-2-2-
|-3-3-3-3-3-3-3-3-3-3-3-3-
 

Guitar solo:
Guitar 1
|-2-2-2-0-0-0-------------2-2-2-0-0-0-------------2-2-2-0-0-0-0-0-0-------
|-3-3-3-3-3-3-3-3-3-3-3-3-3-3-3-3-3-3-3-3-3-3-3-3-3-3-3-3-3-3-3-3-3-3-3-3-
|-2-2-2-2-2-2-0-0-0-0-0-0-2-2-2-2-2-2-0-0-0-0-0-0-2-2-2-2-2-2-0-0-0-0-0-0-
|-0-0-0-2-2-2-0-0-0-0-0-0-0-0-0-2-2-2-0-0-0-0-0-0-0-0-0-2-2-2-2-2-2-0-0-0-
|-------0-0-0-2-2-2-2-2-2-------0-0-0-2-2-2-2-2-2-------0-0-0-2-2-2-2-2-2-
|-------------3-3-3-3-3-3-------------3-3-3-3-3-3-------------0-0-0-3-3-3-

|-2-2-2-0-0-0-------------
|-3-3-3-3-3-3-3-3-3-3-3-3-
|-2-2-2-2-2-2-0-0-0-0-0-0-
|-0-0-0-2-2-2-0-0-0-0-0-0-
|-------0-0-0-2-2-2-2-2-2-
|-------------3-3-3-3-3-3-

Guitar 4
|--------------------------------------------------------------------
|--------------------5-----------------------------------------------
|---7-6-7-7----7-6-7-------7-6-7-7----7-6---------7-6-7-7----7---7-7-
|-0----------0-----------0----------0-----7-7---0--------------5-----
|----------------------------------------------------------7---------
|--------------------------------------------------------------------

|----------------------
|----------------------
|---7-6-7-7----7-6-----
|-0----------0-----7-7-
|----------------------
|----------------------
 

Structure + Lyrics

Intro

Verse

there's no one in town I know
you gave us some place to go
i never said thank you for that
i thought I might get one more chance

what would you think of me now
so lucky, so strong, so proud?
i never said thank you for that
now I'll never have a chance

Chorus

may angels lead you in
hear you me my friends
on sleepless roads the sleepless go
may angels lead you in

Interlude

Verse

so what would you think of me now
so lucky, so strong, so proud?
i never said thank you for that
now I'll never have a chance

Chorus

may angels lead you in
hear you me my friends
on sleepless roads the sleepless go
may angels lead you in

Bridge

(may angels lead you in)
may angels lead you in
(may angels lead you in)
may angels lead you in

Guitar solo

Verse

and if you were with me tonight
i'd sing to you just one more time
a song for a heart so big
god wouldn't let it live

Chorus

may angels lead you in
hear you me my friends
on sleepless roads the sleepless go
may angels lead you in
may angels lead you in
hear you me my friends
on sleepless roads the sleepless go
may angels lead you in
on sleepless roads the sleepless go
may angels lead you in