Make your own free website on Tripod.com
Jimmy Eat World - H Model (from the album Singles)

Standard Tuning (E A D G B E)

Verse:
Guitar 1 (distortion)
|-----------------------------------------------------------------
|-----------------------------------------------------------------
|-5-5-5-5-5-5-5-5-5-5-5-5---------5-5-5-5-5-5-5-5-5-5-5-5---------
|-5-5-5-5-5-5-5-5-5-5-5-5-3-3-3-3-5-5-5-5-5-5-5-5-5-5-5-5-3-3-3-3-
|-3-3-3-3-3-3-3-3-3-3-3-3-3-3-3-3-3-3-3-3-3-3-3-3-3-3-3-3-3-3-3-3-
|-----------------0-0-0-0-1-1-1-1-----------------0-0-0-0-1-1-1-1-

Guitar 2 (in background)
|-------------------------------------------------------------------------
|-------------------------------------------------------------------------
|-5-5-5-5-7-7-7-7-9-9-9-9-10-10-10-10-5-5-5-5-7-7-7-7-9-9-9-9-10-10-10-10-
|-x-x-x-x-x-x-x-x-x-x-x-x-x--x--x--x--x-x-x-x-x-x-x-x-x-x-x-x-x--x--x--x--
|-3-3-3-3-5-5-5-5-7-7-7-7-8--8--8--8--3-3-3-3-5-5-5-5-7-7-7-7-8--8--8--8--
|-------------------------------------------------------------------------

Chorus:
Guitar 1
|---------------------------------------------------------------------------------
|---------------------------------------------------------------------------------
|---------------------------------------------------------------------------------
|-10-10-10-10-10-10-10-10-8-8-8-8-8-8-8-8-10-10-10-10-10-10-10-10-8-8-8-8-8-8-8-8-
|-7--7--7--7--8--8--8--8--8-8-8-8-8-8-8-8-7--7--7--7--8--8--8--8--8-8-8-8-8-8-8-8-
|-0--0--0--0--------------6-6-6-6-6-6-6-6-0--0--0--0--------------6-6-6-6-6-6-6-6-

Guitar 2
|-----------------------------------------------------------------
|-----------------------------------------------------------------
|-----------------------------------------------------------------
|---------3-3-3-3-8-8-8-8-8-8-8-8---------3-3-3-3-8-8-8-8-8-8-8-8-
|-3-3-3-3-3-3-3-3-8-8-8-8-8-8-8-8-3-3-3-3-3-3-3-3-8-8-8-8-8-8-8-8-
|-0-0-0-0-1-1-1-1-6-6-6-6-6-6-6-6-0-0-0-0-1-1-1-1-6-6-6-6-6-6-6-6-

last time
|-----------------
|-----------------
|-----------------
|-3-3-3-3-3-3-3-3-
|-3-3-3-3-3-3-3-3-
|-1-1-1-1-1-1-1-1-
 

Second Chorus:
Guitar 1 (distortion, heavy palm-muting)
|---------------------------------------------------------------------------------
|---------------------------------------------------------------------------------
|---------------------------------------------------------------------------------
|-10-10-10-10-10-10-10-10-8-8-8-8-8-8-8-8-10-10-10-10-10-10-10-10-8-8-8-8-8-8-8-8-
|-7--7--7--7--8--8--8--8--8-8-8-8-8-8-8-8-7--7--7--7--8--8--8--8--8-8-8-8-8-8-8-8-
|-------------------------6-6-6-6-6-6-6-6-------------------------6-6-6-6-6-6-6-6-

Guitar 2 enters
|-----------------------------------------------------------------
|-----------------------------------------------------------------
|-----------------------------------------------------------------
|---------3-3-3-3-8-8-8-8-8-8-8-8---------3-3-3-3-8-8-8-8-8-8-8-8-
|-3-3-3-3-3-3-3-3-8-8-8-8-8-8-8-8-3-3-3-3-3-3-3-3-8-8-8-8-8-8-8-8-
|-0-0-0-0-1-1-1-1-6-6-6-6-6-6-6-6-0-0-0-0-1-1-1-1-6-6-6-6-6-6-6-6-

last time
|-----------------
|-----------------
|-----------------
|-3-3-3-3-3-3-3-3-
|-3-3-3-3-3-3-3-3-
|-1-1-1-1-1-1-1-1-

Bridge:
Guitar 1
|-----------------------------------------------------------------
|-----------------------------------------------------------------
|-5-5-5-5-------------------------5-5-5-5-------------------------
|-5-5-5-5-3-3-3-3-3-3-3-3-3-3-3-3-5-5-5-5-3-3-3-3-3-3-3-3-3-3-3-3-
|-3-3-3-3-3-3-3-3-3-3-3-3-3-3-3-3-3-3-3-3-3-3-3-3-3-3-3-3-3-3-3-3-
|---------0-0-0-0-1-1-1-1-1-1-1-1---------0-0-0-0-1-1-1-1-1-1-1-1-

Guitar 2
|-----------------------------------------------------------------
|-----------------------------------------------------------------
|-5---------------5/7-7/9-----------------4h5-4h5-4h5-4h5-4h5-4h5-
|-x---------------x/x-x/x-----------------------------------------
|-3---------------3/5-5/7-----------------------------------------
|-----------------------------------------------------------------

Ending:
Both Guitars
|--------------------------------------------------------------------
|--------------------------------------------------------------------
|--------------------------------------------------------------------
|-8-8-8-8-8-8-8-8-8-8-8-8-8-8-8-8-8-8-8-8-8-8-8-8-8-8-8-8-8-8-8-8--3-
|-8-8-8-8-8-8-8-8-8-8-8-8-8-8-8-8-8-8-8-8-8-8-8-8-8-8-8-8-8-8-8-8--3-
|-6-6-6-6-6-6-6-6-6-6-6-6-6-6-6-6-6-6-6-6-6-6-6-6-6-6-6-6-6-6-6-6--1-

|----------
|----------
|----------
|-3--------
|-3---/15b-
|-1--------
 

Structure + Lyrics

"straight outta phoenix boys!"

Verse

Chorus

Verse

Second Chorus

Bridge

Ending