Make your own free website on Tripod.com
 
Jimmy Eat World - Goodbye Sky Harbor (from the album Clarity)

Drop-D tuning (D A D G B E)

Intro and Verse:
|-------------------------------------------------------------------------
|-------------------------------------------------------------------------
|-------------11-11--11-11--11-11--11-11--11-11--11-11--11-11--11-11--11--
|-------------x--x---x--x---x--x---x--x---x--x---x--x---x--x---x--x---x---
|-9-9-9-7-9-9-9--9---9--9---9--9---9--9---9--9---9--9---9--9---9--9---9---
|-9-9-9-7-9-9-0--0---0--0---0--0---0--0---0--0---0--0---0--0---0--0---0---

|-------------------------------------------------------
|-------------------------------------------------------
|-------------7-7--7-7--7-7--7-7--7-7--7-7--7-7--7-7--7-
|-------------x-x--x-x--x-x--x-x--x-x--x-x--x-x--x-x--x-
|-9-9-9-7-9-9-5-5--5-5--5-5--5-5--5-5--5-5--5-5--5-5--5-
|-9-9-9-7-9-9-0-0--0-0--0-0--0-0--0-0--0-0--0-0--0-0--0-

|-------------------------------------------------------
|-------------------------------------------------------
|-------------7-7--7-7--7-7--7-7--7-7--7-7--7-7--7-7--7-
|-------------x-x--x-x--x-x--x-x--x-x--x-x--x-x--x-x--x-
|-9-9-9-7-9-9-5-5--5-5--5-5--5-5--5-5--5-5--5-5--5-5--5-
|-9-9-9-7-9-9-0-0--0-0--0-0--0-0--0-0--0-0--0-0--0-0--0-

|-------------------------------------------------------
|-------------------------------------------------------
|-------------7-7--7-7--7-7--7-7--7-7--7-7--7-7--7-7--7-
|-------------x-x--x-x--x-x--x-x--x-x--x-x--x-x--x-x--x-
|-9-9-9-7-9-9-5-5--5-5--5-5--5-5--5-5--5-5--5-5--5-5--5-
|-9-9-9-7-9-9-0-0--0-0--0-0--0-0--0-0--0-0--0-0--0-0--0-

|-------------------------------------------------------
|-------------------------------------------------------
|-------------------------------------------------------
|-------------5-5--5-5--5-5--5-5--5-5--5-5--5-5--5-5--5-
|-9-9-9-7-9-9-5-5--5-5--5-5--5-5--5-5--5-5--5-5--5-5--5-
|-9-9-9-7-9-9-5-5--5-5--5-5--5-5--5-5--5-5--5-5--5-5--5-

|-----------------
|-----------------
|-----------------
|-----------------
|-9-9-9-7-9-9-7-9-
|-9-9-9-7-9-9-7-9-

Chorus:
|-----------------------------------------------------------------
|-------3-3-3-3-3-3-3-3-3-3-3-3-3-------3-3-3-3-3-----------------
|-4-4-4-2-2-2-2-2-0-0-0-2-2-2-2-2-4-4-4-2-2-2-2-2-----------------
|-4-4-4-0-0-0-0-0-0-0-0-0-0-0-0-0-4-4-4-0-0-0-0-0-7-7-7-7-7-7-7-7-
|-2-2-2-0-0-0-0-0-x-x-x-0-0-0-0-0-2-2-2-0-0-0-0-0-7-7-7-7-7-7-7-7-
|-------0-0-0-0-0-5-5-5-0-0-0-0-0-------0-0-0-0-0-7-7-7-7-7-7-7-7-
 

Bridge:
|----------------------------------------------------------------
|----------------------------------------------------------------
|-------11-11-11-11-11-------11-11-11-11-11-------11-11-11-11-11-
|-9-9-9-x--x--x--x--x--9-9-9-x--x--x--x--x--9-9-9-x--x--x--x--x--
|-9-9-9-9--9--9--9--9--9-9-9-9--9--9--9--9--9-9-9-9--9--9--9--9--
|-9-9-9-0--0--0--0--0--9-9-9-0--0--0--0--0--9-9-9-0--0--0--0--0--

|---------------------------------|
|---------------------------------|
|-------9-9-9-9-9-------9-9-9-9-9-|
|-------x-x-x-x-x-------x-x-x-x-x-|
|-------7-7-7-7-7-------7-7-7-7-7-|
|-7-7-7-0-0-0-0-0-7-7-7-0-0-0-0-0-|
 

"Space out":
Guitar 1
|---------------------------------------------------------------------------------
|---------------------------------------------------------------------------------
|-------------------------------------------------------2-2-2-2-2-------2-2-2-2-2-
|-9-9-9-0-0-0-0-0-9-9-9-0-0-0-0-0-9-9-9-0-0-0-0-0-7-7-7-0-0-0-0-0-7-7-7-0-0-0-0-0-
|-9-9-9-0-0-0-0-0-9-9-9-0-0-0-0-0-9-9-9-0-0-0-0-0-7-7-7-0-0-0-0-0-7-7-7-0-0-0-0-0-
|-9-9-9-0-0-0-0-0-9-9-9-0-0-0-0-0-9-9-9-0-0-0-0-0-7-7-7-0-0-0-0-0-7-7-7-0-0-0-0-0-

Guitar 2
|-5-4-5---5---5---5-4-5---5---5---
|-------5---3---2-------5---3---2-
|---------------------------------
|---------------------------------
|---------------------------------
|---------------------------------
 

Structure + Lyrics

Intro

Verse

'is tomorrow just a day like all the rest'
(how could you know just what you did?)
like all the rest
(how could you know just what you did?)
so full of faith yet full of doubt i ask

Chorus

again
i shall ask you this once again
he said: 'i am but one small instrument'
do you remember that?

Verse

time and time again you said don't be afraid
('if you believe then you can do it')
don't be afraid
('if you believe then you can do it')
the only voice i want to hear is yours

Chorus

again
i shall ask you this once again
he said: 'i am but one small instrument'

Bridge

so here i am above palm trees so straight and tall
you are smaller, getting smaller
but i still see you

"Space out"