Make your own free website on Tripod.com
Jimmy Eat World - For Me This is Heaven

Guitar 1 - Drop D tuning (D A D G B E), capo on 4th fret (F# C# F# B D# G#)
Guitar 2 - Standard tuning (E A D G B E)

Intro/Verse:
Guitar 1
|-------------------------------------------------
|-------------------------------------------------
|-------------------------------------------------
|-------------------------------------------------
|-----0---0-------0---0-------0---0-------0---0---
|-2-2---2---2-4-4---4---4-0-0---0---0-0-0---0---0-

Guitar 2
|-----4-----4-----4-----4-----4-----4-----4-----4-
|---7-----7-----7-----7-----7-----7-----7-----7---
|-6-----6-----6-----6-----6-----6-----6-----6-----
|-------------------------------------------------
|-------------------------------------------------
|-------------------------------------------------

Chorus:
Guitar 1
|-------------------------------------------------
|-------------------------------------------------
|-----2---2-------2---2-------2---2-------2---2---
|-----0---0-------0---0-------0---0-------0---0---
|-----0---0-------0---0-------0---0-------0---0---
|-2-2---2---2-4-4---4---4-0-0---0---0-0-0---0---0-

Guitar 2
|-------------------------------------------------
|---------------------7p6-------------------------
|---5h6---5h6---5h6---------5h6---5h6---5h6---5h6-
|-6-----6-----6-----6-----6-----6-----6-----6-----
|-------------------------------------------------
|-------------------------------------------------

Break after 2nd Chorus:
Guitar 1
|-------------------------------------------------------------
|-------------------------------------------------------------
|-------------------------------------------------------------
|-------11----11--------11---11-------11---11-------11---11---
|-11-11----11----11-8-8----8----8-9-9----9----9-9-9----9----9-
|-------------------------------------------------------------

|-------------------------------------------------------------
|-------------------------------------------------------------
|-------------------------------------------------------------
|-------11----11--------11---11-------11---11-------11---11---
|-11-11----11----11-8-8----8----8-9-9----9----9-9-9----9----9-
|-------------------------------------------------------------

Guitar 2
|-------------------------------------------------
|-------------------------------------------------
|-------------------------------------------------
|-------------------------------------------------
|-----4---4-------4---4-------4---4-------4---4---
|-4-4---4---4-6-6---6---6-2-2---2---2-2-2---2---2-

|-------------------------------------------------
|-------------------------------------------------
|-------------------------------------------------
|-------------------------------------------------
|-----4---4-------4-----------4---4-------4---4---
|-4-4---4---4-6-6---6p4h6-2-2---2---2-2-2---2---2-

Guitar Solo
Guitar 1
|------------------------------------------------------
|-2-3-2-0-2------------------2-3-2-0-2-----------------
|-----------2--------------------------2---------------
|------------------------------------------------------
|------------------------------------------------------
|------------------------------------------------------

Guitar 2
|------------------------------------------------------
|------------------------------------------------------
|------------------------------------------------------
|------------------------------------------------------
|-------------8-8h9p8-6h8-4--------------8-8h9p8-6h8-4-
|------------------------------------------------------

Piano Solo/Bridge
Guitar 1
|-----------------------------------------------------------------
|-----------------------------------------------------------------
|-2-2-2-2-2-2-2-2-2-2-2-2-2-2-2-2---------------------------------
|-2-2-2-2-2-2-2-2-2-2-2-2-2-2-2-2---------------------------------
|-0-0-0-0-0-0-0-0-0-0-0-0-0-0-0-0-5-5-5-5-5-5-5-5-5-5-5-5-5-5-5-5-
|---------------------------------4-4-4-4-4-4-4-4-4-4-4-4-4-4-4-4-

|-----------------------------------------------------------------
|-----------------------------------------------------------------
|-----------------------------------------------------------------
|-4-4-4-4-4-4-4-4-4-4-4-4-4-4-4-4-0-0-0-0-0-0-0-0-0-0-0-0-0-0-0-0-
|-4-4-4-4-4-4-4-4-4-4-4-4-4-4-4-4-0-0-0-0-0-0-0-0-0-0-0-0-0-0-0-0-
|-4-4-4-4-4-4-4-4-4-4-4-4-4-4-4-4-0-0-0-0-0-0-0-0-0-0-0-0-0-0-0-0-

Guitar 2
|---------------------------------------------------------------------------------
|-9-9-9-9-9-9-9-9-9-9-9-9-9-9-9-9-11-11-11-11-11-11-11-11-11-11-11-11-11-11-11-11-
|-x-x-x-x-x-x-x-x-x-x-x-x-x-x-x-x-x--x--x--x--x--x--x--x--x--x--x--x--x--x--x--x--
|-6-6-6-6-6-6-6-6-6-6-6-6-6-6-6-6-8--8--8--8--8--8--8--8--8--8--8--8--8--8--8--8--
|---------------------------------------------------------------------------------
|---------------------------------------------------------------------------------

|-------------------------------------------------
|-11-11-11-11-11-11-11-11-11-11-11-11-11-11-11-11-
|-x--x--x--x--x--x--x--x--x--x--x--x--x--x--x--x--
|-8--8--8--8--8--8--8--8--8--8--8--8--8--8--8--8--
|-------------------------------------------------
|-------------------------------------------------

|-------------------------------------------------
|-11-11-11-11-11-11-11-11-11-11-11-11-11-11-11-11-
|-x--x--x--x--x--x--x--x--x--x--x--x--x--x--x--x--
|-8--8--8--8--8--8--8--8--8--8--8--8--8--8--8--8--
|-------------------------------------------------
|-------------------------------------------------

Outro:
Guitar 1 (piano arranged for guitar)
|-------------------------------------------------
|---------------------3-2-------------------------
|---1-2---1-2---1-2---------1-2---1-2---1-2---1-2-
|-2-----2-----4-----4-----0-----0-----0-----0-----
|-------------------------------------------------
|-------------------------------------------------

|-----------------------------
|---------------------3-2-----
|---1-2---1-2---1-2-------2---
|-2-----2-----4-----4-----2-0-
|-------------------------0---
|-------------------------0---
 

Structure + Lyrics
 

Intro/Verse

the first star I see may not be a star
I can't do a thing but wait
so let's wait for one more

Verse

and the time, such clumsy time
in deciding if it's time
I'm careful. but not sure how it goes
you can lose yourself in your courage

Chorus

when the time we have now ends
and when the big hand goes around, again
can you still feel the butterflies?
can you still hear the last goodnight?

Break

Verse

and the mindless comfort grows
when I'm alone with my 'great' plans
this is what she said gets her through it
'if I don't let myself be happy now, then when? if not now when?'

Chorus

when the time we have now ends
and when the big hand goes around, again
can you still feel the butterflies?
can you still hear the last goodnight?

Guitar solo

Piano solo/Bridge

I close my eyes and believe
that wherever you are, an angel for me

Chorus

when the time we have now ends
and when the big hand goes around, again
can you still feel the butterflies?
can you still hear the last goodnight?

Outro