Make your own free website on Tripod.com
 
Jimmy Eat World - Clarity (from the album Clarity)

Standard tuning

Intro:
Guitar 1
  C#m             E               A                       E
|---------------------------------------------------------0-0-0-0-
|---------------------------------------------------------0-0-0-0-
|-6-6-6-6-6-6-6-6-----------------------------------------1-1-1-1-
|-6-6-6-6-6-6-6-6-2-2-2-2-2-2-2-2-7-7-7-7-7-7-7-7-2-2-2-2-2-2-2-2-
|-4-4-4-4-4-4-4-4-2-2-2-2-2-2-2-2-7-7-7-7-7-7-7-7-2-2-2-2-2-2-2-2-
|-----------------0-0-0-0-0-0-0-0-5-5-5-5-5-5-5-5-0-0-0-0-0-0-0-0-

Guitar 2
|----------------------------------------------------------
|------------------------------9----9----------------------
|-8/9\8/9/11\9\8/9--8/9\8/9-11---11---8/9\8/9-9-8/9\8/9-9--
|-x-x-x-x-x--x-x-x--x-x-x-x-----------x-x-x-x-x-x-x-x-x-x--
|-6/7\6/7/9-\7\6/7--6/7\6/7-----------6/7\6/7-7-6/7\6/7-7--
|----------------------------------------------------------

Verse:
Bass
|-----------------------------------------------------------------
|-----------------------------------------------------------------
|-4-4-4-4-4-4-4-4-2-2-2-2-2-2-2-2---------------------------------
|---------------------------------5-5-5-5-5-5-5-5-0-0-0-0-0-0-0-0-

Guitar 2 plays the intro riff, which eventually changes to:
  A                     E
|-0--0--0-0-0-0-0-0-0---0--0--0-0-0-0-0-0-
|-10-10-9-9-7-7-5-5-10--10-10-9-9-7-7-5-5-
|-----------------------------------------
|-----------------------------------------
|-----------------------------------------
|-----------------------------------------

Chorus:
Two guitars arranged for one

|----0----0--0----0----0--0---------------------------------
|----4----5--7----4----4b-4---------------------------------
|-----------------------------------------------------------
|-7-7--7-7--7--2-2--2-2--2--4-4-4-4-4-4-4-4-7-7-7-7-7-7-7-7-
|-7-7--7-7--7--2-2--2-2--2--4-4-4-4-4-4-4-4-7-7-7-7-7-7-7-7-
|-5-5--5-5--5--0-0--0-0--0--2-2-2-2-2-2-2-2-5-5-5-5-5-5-5-5-

last time:
  A               E               F#m             A
|-0-0-0-0-0-0-0-0-0-0-0-0-0-0-0-0---------------------------------
|-7-7-7-7-7-7-7-7-7-7-7-7-7-7-7-7---------------------------------
|-----------------------------------------------------------------
|---------------------------------4-4-4-4-4-4-4-4-7-7-7-7-7-7-7-7-
|---------------------------------4-4-4-4-4-4-4-4-7-7-7-7-7-7-7-7-
|---------------------------------2-2-2-2-2-2-2-2-5-5-5-5-5-5-5-5-
 

Bridge:
  C#m             B               A               E
|-------------------------------------------------0-0-0-0-0-0-0-0-
|-5-5-5-5-5-5-5-5---------------------------------0-0-0-0-0-0-0-0-
|-6-6-6-6-6-6-6-6-4-4-4-4-4-4-4-4-----------------1-1-1-1-1-1-1-1-
|-6-6-6-6-6-6-6-6-4-4-4-4-4-4-4-4-7-7-7-7-7-7-7-7-2-2-2-2-2-2-2-2-
|-4-4-4-4-4-4-4-4-2-2-2-2-2-2-2-2-7-7-7-7-7-7-7-7-2-2-2-2-2-2-2-2-
|---------------------------------5-5-5-5-5-5-5-5-0-0-0-0-0-0-0-0-
 

Structure + Lyrics

Intro (2x)

Verse
i'll take your words as if you were talking to me
say what i know you'll say and say it through your teeth
now in the deep and down your heart moves
now in the deep and down, i don't know how but i know i want out

Chorus
wait for something better
will i know when it can be us?
wait for something better
maybe that doesn't mean us
wait for something better?
i shouldn't, its not enough
pull one excuse from another

Verse
and with pride keep every failure in
and with pride hold on to the sinking
now in the deep and down your heart moves
now in the deep and down, i don't know how but i know i want out

Chorus

Bridge

Chorus
pull one excuse from another
this time it means us