Make your own free website on Tripod.com
Jimmy Eat World - Believe In What You Want (from the album Clarity)

Drop-D tuning (D A D G B E)

Intro and Verse:

e-------------------------------------------------|
B-------------------------------------------------|
G-10-10-10-10\12-9-9-9-9-10-10-10-10-10-10-10-10--|
D-x--x--x--x-\x--x-x-x-x-8--8--8--8--8--8--8--8---|
A-8--8--8--8-\10-8-8-8-8-8--8--8--8--8--8--8--8---|
D------------------------8--8--8--8--8--8--8--8---|

Chorus:
  F               Dm              Bb
e---------------------------------------------------------|
B-----------------3-3-3-3-3-3-3-3-------------------------|
G-5-5-5-5-5-5-5-5-2-2-2-2-2-2-2-2-10-10-10-10-10-10-10-10-|
D-3-3-3-3-3-3-3-3-0-0-0-0-0-0-0-0-8--8--8--8--8--8--8--8--|
A-3-3-3-3-3-3-3-3-0-0-0-0-0-0-0-0-8--8--8--8--8--8--8--8--|
D-3-3-3-3-3-3-3-3-0-0-0-0-0-0-0-0-8--8--8--8--8--8--8--8--|

  G       Bb
e---------------------|
B---------------------|
G-7-7-7-7\10-10-10-10-|
D-5-5-5-5\8--8--8--8--|
A-5-5-5-5\8--8--8--8--|
D-5-5-5-5\8--8--8--8--|
 

Bridge:
  Dm              Bb
e-----------------------------------------|
B-----------------------------------------|
G-2-2-2-2-2-2-2-2-10-10-10-10-10-10-10-10-|
D-0-0-0-0-0-0-0-0-8--8--8--8--8--8--8--8--|
A-0-0-0-0-0-0-0-0-8--8--8--8--8--8--8--8--|
D-0-0-0-0-0-0-0-0-8--8--8--8--8--8--8--8--|

End on:
  F
e---|
B---|
G-5-|
D-3-|
A-3-|
D-3-|

Structure + Lyrics

Intro riff (2x)

Verse (4x)
don't bother going through your motions
nothing that makes sense ever works out
don't kid yourself, you know they want money
nothing can be good on its own merit

Chorus (2x)
spinning and spinning
do you believe in what you want?
dancing in plastic, shake up snow
do you believe in what you want?

Verse (4x)
put your trust in simple acts
make the flyers get them up all over town
don't kid yourself, you know they want money
please keep in sight what makes you care
you have it always

Chorus (2x)

Bridge (4x)
your camera flash
on us, meaningless

Verse (2x)
you cannot waste a single night
what you ignore is priceless to me

Chorus (2x)

End chord