Make your own free website on Tripod.com
Jimmy Eat World - Your New Aesthetic (demo)

Standard Tuning (E A D G B E)

Intro and Verse:

e----------------------|
B----------------------|
G-6-4-3-4--6-6-8-4-3-4-|
D-x-x-x-x--x-x-x-x-x-x-|
A-4-2-1-2--4-4\6-2-1-2-|
E---0---0--------0---0-|

Bass
G-----------------------
D-----------------------
A-2--------2------------
E---0-4-0--------0-4-0--

 

Chorus:
Guitar 1
e-0-0-0-0-0-0-0-0--0-0-0-0-0-0-0-0-|
B-0-0-0-0-0-0-0-0--0-0-0-0-0-0-0-0-|
G-8-8-8-8-8-8-8-8--8-8-8-8-8-8-8-8-|
D-9-9-9-9-9-9-9-9--9-9-9-9-9-9-9-9-|
A-9-9-9-9-9-9-9-9--7-7-7-7-7-7-7-7-|
E-7-7-7-7-7-7-7-7--0-0-0-0-0-0-0-0-|

Guitar 2
e-----------------------------------------|
B-----------------------------------------|
G-11-11-11-11-11-11-11-11-8-8-8-9-9-9-8-8-|
D-x--x--x--x--x--x--x--x--x-x-x-x-x-x-x-x-|
A-9--9--9--9--9--9--9--9--6-6-6-7-7-7-6-6-|
E-----------------------------------------|
 

Bridge:

e-0-0-0-0-0-0-0-0-0-0-0-0-0-0-0-0-0-0-0-0-0-0-0-0-0-0-0-0-0-0-0-0-|
B-0-0-0-0-0-0-0-0-0-0-0-0-0-0-0-0-0-0-0-0-0-0-0-0-0-0-0-0-0-0-0-0-|
G-3-3-3-3-3-3-3-3-4-4-4-4-4-4-4-4-8-8-8-8-8-8-8-8-9-9-9-9-9-9-9-9-|
D-4-4-4-4-4-4-4-4-4-4-4-4-4-4-4-4-9-9-9-9-9-9-9-9-9-9-9-9-9-9-9-9-|
A-2-2-2-2-2-2-2-2-2-2-2-2-2-2-2-2-7-7-7-7-7-7-7-7-7-7-7-7-7-7-7-7-|
E---------------------------------0-0-0-0-0-0-0-0-0-0-0-0-0-0-0-0-|
 

Structure

Intro (1x)

Verse (3x)

Chorus (4x)

Verse (4x)

Chorus (4x)

Bridge (6x)

Chorus (4x)