Make your own free website on Tripod.com
Jimmy Eat World - A Sunday (from the album Clarity)

Drop-D Tuning (D A D G B E)

Intro and Verse Riff:

e----------------------------------------------------------------------------|
B----------------------------------------------------------------------------|
G-11-11-11\7-7-7-7-7-7\4-4-4-4-4-4-4-4--11-11-11\7-7-7-6-6-6\4-4-4-4-4-4-4-4-|
D-x--x--x\-x-x-x-x-x-x\x-x-x-x-x-x-x-x--x--x--x\-x-x-x-x-x-x\x-x-x-x-x-x-x-x-|
A-9--9--9\-5-5-5-5-5-5\2-2-2-2-2-2-2-2--9--9--9\-5-5-5-4-4-4\2-2-2-2-2-2-2-2-|
D-0--0--0--0-0-0-0-0-0-0-0-0-0-0-0-0-0--0--0--0--0-0-0-0-0-0-0-0-0-0-0-0-0-0-|
 

Pre-Chorus:

Guitar1
  F#m              Em              Bm              G
e------------------------------------------------------------------|
B------------------------------------------------------------------|
G----------------------------------4-4-4-4-4-4-4-4-----------------|
D-7-7-7-7-7-7-7-7--2-2-2-2-2-2-2-2-4-4-4-4-4-4-4-4-5-5-5-5-5-5-5-5-|
A-4-4-4-4-4-4-4-4--2-2-2-2-2-2-2-2-2-2-2-2-2-2-2-2-5-5-5-5-5-5-5-5-|
D-4-4-4-4-4-4-4-4--2-2-2-2-2-2-2-2-----------------5-5-5-5-5-5-5-5-|
 

Guitar 2
e----12----12----12----14-|
B-15----15----15----15----|
G-------------------------|
D-------------------------|
A-------------------------|
D-------------------------|
 

Chorus: (organ arranged for guitar)

   D    G    D    G    D    G    D    G
e--0----x----0----x----0----x----0----x--|
B--3----3----3----3----3----3----3----3--|
G--2----0----2----0----2----0----2----0--|
D--0----0----0----0----0----0----0----0--|
A--0----x----0----x----0----x----0----x--|
D--0----5----0----5----0----5----0----5--|
 

Interlude:

  F#m              Em              Bm              G
e------------------------------------------------------------------|
B------------------------------------------------------------------|
G----------------------------------4-4-4-4-4-4-4-4-----------------|
D-7-7-7-7-7-7-7-7--2-2-2-2-2-2-2-2-4-4-4-4-4-4-4-4-5-5-5-5-5-5-5-5-|
A-4-4-4-4-4-4-4-4--2-2-2-2-2-2-2-2-2-2-2-2-2-2-2-2-5-5-5-5-5-5-5-5-|
D-4-4-4-4-4-4-4-4--2-2-2-2-2-2-2-2-----------------5-5-5-5-5-5-5-5-|
 
 

Lyrics + Structure
 

Intro (2x)

Verse (2x)
on a sunday I'll think it through
on the drive back I'll think it through

Pre-chorus (2x)

what you wish for won't come true
live with that, with that

Verse (2x)

and on a sunday she thought it through
now as I drive back, there's thirty-six less hours

Pre Chorus (2x)

I have to change the course I send myself
live with that, with that

Chorus (4x)

the haze clears from your eyes on a sunday

Verse (4x)

on a sunday go once around
because when the ride's done, the hopes that you have carried

Pre Chorus (2x)

they fall out from your hands right to the ground
live with that, with that

Chorus (4x)

the haze clears from your eyes on a sunday

Interlude / Pre-Chorus - cello solo (4x)
learn as the drugs leave
learn as you lose it
you will

Chorus (8x)

the haze clears from your eyes on a sunday