Make your own free website on Tripod.com
Jimmy Eat World - 12.23.95 (from the album Clarity)

Standard Tuning (E A D G B E)
Capo on 5th fret

Intro and Verse:
 
|-----0-----0-2-0-|
|---0-----0-------|
|-----------------|
|-2---------------|
|-------0---------|
|-----------------|

Chorus:
(bass plays bottom notes)
|-------------------------------------------------|
|-0--0--0--0--0--0--0--0--0--0--0--0--0--0--0--0--|
|-11-11-11-11-11-11-11-11-11-11-11-11-11-11-11-11-|
|-12-12-12-12-12-12-12-12-12-12-12-12-12-12-12-12-|
|-------------------------------------------------|
|-------------------------10-------9-----7------5-|
 

Outro:
|---0-------0---0---0-------0---0---0-------0---0---0-------0---0-|
|-----0---0---0-------0---0---0-------0---0---0-------0---0---0---|
|-------2---------------2---------------2---------------2---------|
|-2---------------2---------------2---------------2---------------|
|-----------------------------------------------------------------|
|-----------------------------------------------------------------|
 

Lyrics + Structure

Intro (4x)

Verse (8x)
didn't mean to leave you hanging on
i didn't mean to leave you all alone

Chorus (1x)
i didn't know what to say

Intro riff (4x)

Chorus (1x)

Intro riff (4x)

Verse (8x)

Chorus (1x)

Intro riff (4x)

Chorus (1x)

Intro riff (4x)

Verse (8x)
merry christmas baby

Outro (fade out)